ISO-10303-21;
HEADER;
FILE_DESCRIPTION (( 'STEP AP214' ),
    '1' );
FILE_NAME ('FULLVAC BT1KF161913.STEP',
    '2019-04-24T08:21:51',
    ( '' ),
    ( '' ),
    'SwSTEP 2.0',
    'SolidWorks 2017',
    '' );
FILE_SCHEMA (( 'AUTOMOTIVE_DESIGN' ));
ENDSEC;

DATA;
#1 = ORIENTED_EDGE ( 'NONE', *, *, #39, .F. ) ;
#2 = AXIS2_PLACEMENT_3D ( 'NONE', #8, #167, #128 ) ;
#3 = EDGE_LOOP ( 'NONE', ( #107 ) ) ;
#4 =( GEOMETRIC_REPRESENTATION_CONTEXT ( 3 ) GLOBAL_UNCERTAINTY_ASSIGNED_CONTEXT ( ( #239 ) ) GLOBAL_UNIT_ASSIGNED_CONTEXT ( ( #115, #132, #150 ) ) REPRESENTATION_CONTEXT ( 'NONE', 'WORKASPACE' ) );
#5 = CARTESIAN_POINT ( 'NONE',  ( -5.180853557315900500E-016, 2.540000000000000000, -2.151595008963480300E-016 ) ) ;
#6 = CIRCLE ( 'NONE', #137, 15.00000000000000000 ) ;
#7 = CARTESIAN_POINT ( 'NONE',  ( -29.25881904510259800, 3.099299419155043800, -14.62940952255129900 ) ) ;
#8 = CARTESIAN_POINT ( 'NONE',  ( -4.849738739522680400E-016, 12.69999999999999900, 1.937561997600620000E-016 ) ) ;
#9 = CARTESIAN_POINT ( 'NONE',  ( 0.0000000000000000000, 3.099299419155043800, -14.62940952255130100 ) ) ;
#10 = CARTESIAN_POINT ( 'NONE',  ( -29.99999999999999600, 2.616336506010520100, 14.99999999999999800 ) ) ;
#11 = FACE_BOUND ( 'NONE', #178, .T. ) ;
#12 = CARTESIAN_POINT ( 'NONE',  ( 0.0000000000000000000, 0.0000000000000000000, 0.0000000000000000000 ) ) ;
#13 = PRESENTATION_LAYER_ASSIGNMENT (  '', '', ( #243 ) ) ;
#14 =( LENGTH_UNIT ( ) NAMED_UNIT ( * ) SI_UNIT ( .MILLI., .METRE. ) );
#15 = FACE_OUTER_BOUND ( 'NONE', #60, .T. ) ;
#16 = CARTESIAN_POINT ( 'NONE',  ( 0.0000000000000000000, 12.69999999999999900, 9.550000000000000700 ) ) ;
#17 = AXIS2_PLACEMENT_3D ( 'NONE', #174, #58, #99 ) ;
#18 = CIRCLE ( 'NONE', #205, 8.599999999999999600 ) ;
#19 = PRODUCT_DEFINITION_CONTEXT ( 'detailed design', #257, 'design' ) ;
#20 = CIRCLE ( 'NONE', #17, 7.849999999999999600 ) ;
#21 = VERTEX_POINT ( 'NONE', #235 ) ;
#22 = FACE_BOUND ( 'NONE', #236, .T. ) ;
#23 = UNCERTAINTY_MEASURE_WITH_UNIT (LENGTH_MEASURE( 1.000000000000000100E-005 ), #14, 'distance_accuracy_value', 'NONE');
#24 = FACE_OUTER_BOUND ( 'NONE', #149, .T. ) ;
#25 = FACE_OUTER_BOUND ( 'NONE', #34, .T. ) ;
#26 = DIRECTION ( 'NONE',  ( 0.0000000000000000000, 0.0000000000000000000, 1.000000000000000000 ) ) ;
#27 = ORIENTED_EDGE ( 'NONE', *, *, #185, .F. ) ;
#28 = MECHANICAL_DESIGN_GEOMETRIC_PRESENTATION_REPRESENTATION (  '', ( #243 ), #46 ) ;
#29 = CARTESIAN_POINT ( 'NONE',  ( 29.99999999999999600, 2.616336506010520100, 14.99999999999999800 ) ) ;
#30 = CARTESIAN_POINT ( 'NONE',  ( 0.0000000000000000000, 2.616336506010520100, 15.00000000000000200 ) ) ;
#31 = FACE_OUTER_BOUND ( 'NONE', #131, .T. ) ;
#32 = CARTESIAN_POINT ( 'NONE',  ( -29.25881904510259800, 3.099299419155043800, 14.62940952255129900 ) ) ;
#33 = ADVANCED_FACE ( 'NONE', ( #15, #195 ), #86, .T. ) ;
#34 = EDGE_LOOP ( 'NONE', ( #41 ) ) ;
#35 = FACE_OUTER_BOUND ( 'NONE', #3, .T. ) ;
#36 = AXIS2_PLACEMENT_3D ( 'NONE', #216, #104, #215 ) ;
#37 = EDGE_LOOP ( 'NONE', ( #114 ) ) ;
#38 = SURFACE_STYLE_USAGE ( .BOTH. , #192 ) ;
#39 = EDGE_CURVE ( 'NONE', #63, #63, #190, .T. ) ;
#40 =( NAMED_UNIT ( * ) PLANE_ANGLE_UNIT ( ) SI_UNIT ( $, .RADIAN. ) );
#41 = ORIENTED_EDGE ( 'NONE', *, *, #39, .T. ) ;
#42 = ORIENTED_EDGE ( 'NONE', *, *, #251, .T. ) ;
#43 = CARTESIAN_POINT ( 'NONE',  ( 0.0000000000000000000, 2.616336506010520100, 15.00000000000000000 ) ) ;
#44 = ADVANCED_FACE ( 'NONE', ( #89, #35 ), #139, .F. ) ;
#45 = EDGE_LOOP ( 'NONE', ( #105 ) ) ;
#46 =( GEOMETRIC_REPRESENTATION_CONTEXT ( 3 ) GLOBAL_UNCERTAINTY_ASSIGNED_CONTEXT ( ( #155 ) ) GLOBAL_UNIT_ASSIGNED_CONTEXT ( ( #177, #233, #254 ) ) REPRESENTATION_CONTEXT ( 'NONE', 'WORKASPACE' ) );
#47 = CLOSED_SHELL ( 'NONE', ( #44, #136, #156, #249, #221, #62, #82, #71, #33 ) ) ;
#48 = PRODUCT_RELATED_PRODUCT_CATEGORY ( 'part', '', ( #152 ) ) ;
#49 = DIRECTION ( 'NONE',  ( 0.0000000000000000000, 1.000000000000000000, 0.0000000000000000000 ) ) ;
#50 = CARTESIAN_POINT ( 'NONE',  ( 29.25881904510259800, 3.099299419155043800, 14.62940952255129900 ) ) ;
#51 = ORIENTED_EDGE ( 'NONE', *, *, #61, .T. ) ;
#52 = CARTESIAN_POINT ( 'NONE',  ( -29.71346540353370000, 3.038388356863342300, 14.85673270176685000 ) ) ;
#53 = CARTESIAN_POINT ( 'NONE',  ( 0.0000000000000000000, 0.0000000000000000000, 0.0000000000000000000 ) ) ;
#54 = CARTESIAN_POINT ( 'NONE',  ( 0.0000000000000000000, 3.099299419155043800, 14.62940952255130100 ) ) ;
#55 = PLANE ( 'NONE',  #225 ) ;
#56 = COLOUR_RGB ( '',0.7450980392156862900, 0.7450980392156862900, 0.7450980392156862900 ) ;
#57 = CIRCLE ( 'NONE', #119, 7.849999999999999600 ) ;
#58 = DIRECTION ( 'NONE',  ( 0.0000000000000000000, -1.000000000000000000, 0.0000000000000000000 ) ) ;
#59 = PRODUCT_CONTEXT ( 'NONE', #157, 'mechanical' ) ;
#60 = EDGE_LOOP ( 'NONE', ( #151 ) ) ;
#61 = EDGE_CURVE ( 'NONE', #258, #258, #18, .T. ) ;
#62 = ADVANCED_FACE ( 'NONE', ( #25, #22 ), #186, .T. ) ;
#63 = VERTEX_POINT ( 'NONE', #250 ) ;
#64 = VERTEX_POINT ( 'NONE', #234 ) ;
#65 = ORIENTED_EDGE ( 'NONE', *, *, #255, .T. ) ;
#66 = CARTESIAN_POINT ( 'NONE',  ( 0.0000000000000000000, 0.0000000000000000000, 0.0000000000000000000 ) ) ;
#67 = CARTESIAN_POINT ( 'NONE',  ( 0.0000000000000000000, 12.69999999999999900, 0.0000000000000000000 ) ) ;
#68 = CARTESIAN_POINT ( 'NONE',  ( -29.99999999999999600, 2.616336506010520100, -14.99999999999999800 ) ) ;
#69 = AXIS2_PLACEMENT_3D ( 'NONE', #143, #188, #130 ) ;
#70 = DIRECTION ( 'NONE',  ( 1.482222738811164200E-017, -1.000000000000000000, 0.0000000000000000000 ) ) ;
#71 = ADVANCED_FACE ( 'NONE', ( #170, #238 ), #75, .T. ) ;
#72 = CARTESIAN_POINT ( 'NONE',  ( 30.00000000000000000, 2.851678778707476000, -15.00000000000000000 ) ) ;
#73 = CARTESIAN_POINT ( 'NONE',  ( 29.25881904510259800, 3.099299419155043800, -14.62940952255129900 ) ) ;
#74 = COLOUR_RGB ( '',0.7450980392156862900, 0.7450980392156862900, 0.7450980392156862900 ) ;
#75 =( BOUNDED_SURFACE ( )  B_SPLINE_SURFACE ( 3, 3, ( 
 ( #54, #50, #73, #9, #7, #32, #210 ),
 ( #96, #109, #165, #204, #148, #52, #110 ),
 ( #242, #223, #72, #92, #226, #207, #146 ),
 ( #30, #29, #244, #187, #68, #10, #206 ) ),
 .UNSPECIFIED., .F., .T., .F. ) 
 B_SPLINE_SURFACE_WITH_KNOTS ( ( 4, 4 ),
 ( 4, 3, 4 ),
 ( 0.0000000000000000000, 1.000000000000000000 ),
 ( 0.0000000000000000000, 0.5000000000000000000, 1.000000000000000000 ),
 .UNSPECIFIED. ) 
 GEOMETRIC_REPRESENTATION_ITEM ( )  RATIONAL_B_SPLINE_SURFACE ( (
 ( 1.000000000000000000, 0.3333333333333333100, 0.3333333333333333100, 1.000000000000000000, 0.3333333333333333100, 0.3333333333333333100, 1.000000000000000000),
 ( 0.8622355601941731300, 0.2874118533980576900, 0.2874118533980576900, 0.8622355601941731300, 0.2874118533980576900, 0.2874118533980576900, 0.8622355601941731300),
 ( 0.8622355601941731300, 0.2874118533980576900, 0.2874118533980576900, 0.8622355601941731300, 0.2874118533980576900, 0.2874118533980576900, 0.8622355601941731300),
 ( 1.000000000000000000, 0.3333333333333333100, 0.3333333333333333100, 1.000000000000000000, 0.3333333333333333100, 0.3333333333333333100, 1.000000000000000000) ) ) 
 REPRESENTATION_ITEM ( '' )  SURFACE ( )  );
#76 = DIRECTION ( 'NONE',  ( 0.0000000000000000000, 1.000000000000000000, 0.0000000000000000000 ) ) ;
#77 = DIRECTION ( 'NONE',  ( 0.0000000000000000000, 1.000000000000000000, 0.0000000000000000000 ) ) ;
#78 = AXIS2_PLACEMENT_3D ( 'NONE', #12, #98, #81 ) ;
#79 = VERTEX_POINT ( 'NONE', #43 ) ;
#80 = DIRECTION ( 'NONE',  ( 0.0000000000000000000, 0.0000000000000000000, 1.000000000000000000 ) ) ;
#81 = DIRECTION ( 'NONE',  ( 0.0000000000000000000, 0.0000000000000000000, 1.000000000000000000 ) ) ;
#82 = ADVANCED_FACE ( 'NONE', ( #11, #230 ), #55, .F. ) ;
#83 = SURFACE_STYLE_USAGE ( .BOTH. , #158 ) ;
#84 = FACE_BOUND ( 'NONE', #240, .T. ) ;
#85 = ORIENTED_EDGE ( 'NONE', *, *, #185, .T. ) ;
#86 = CYLINDRICAL_SURFACE ( 'NONE', #111, 15.00000000000000000 ) ;
#87 = EDGE_LOOP ( 'NONE', ( #126 ) ) ;
#88 = DIRECTION ( 'NONE',  ( 0.0000000000000000000, -1.000000000000000000, 0.0000000000000000000 ) ) ;
#89 = FACE_OUTER_BOUND ( 'NONE', #91, .T. ) ;
#90 = EDGE_LOOP ( 'NONE', ( #144 ) ) ;
#91 = EDGE_LOOP ( 'NONE', ( #241 ) ) ;
#92 = CARTESIAN_POINT ( 'NONE',  ( 0.0000000000000000000, 2.851678778707476000, -15.00000000000000200 ) ) ;
#93 = DIRECTION ( 'NONE',  ( 1.000000000000000000, 0.0000000000000000000, 0.0000000000000000000 ) ) ;
#94 = EDGE_LOOP ( 'NONE', ( #1 ) ) ;
#95 = SHAPE_DEFINITION_REPRESENTATION ( #103, #125 ) ;
#96 = CARTESIAN_POINT ( 'NONE',  ( 0.0000000000000000000, 3.038388356863342300, 14.85673270176685000 ) ) ;
#97 = CARTESIAN_POINT ( 'NONE',  ( 0.0000000000000000000, 12.69999999999999900, 0.0000000000000000000 ) ) ;
#98 = DIRECTION ( 'NONE',  ( 0.0000000000000000000, 1.000000000000000000, 0.0000000000000000000 ) ) ;
#99 = DIRECTION ( 'NONE',  ( 0.0000000000000000000, 0.0000000000000000000, -1.000000000000000000 ) ) ;
#100 = CARTESIAN_POINT ( 'NONE',  ( 0.0000000000000000000, 2.616336506010520100, 0.0000000000000000000 ) ) ;
#101 = STYLED_ITEM ( 'NONE', ( #124 ), #209 ) ;
#102 = CARTESIAN_POINT ( 'NONE',  ( 0.0000000000000000000, 2.540000000000000500, -7.849999999999999600 ) ) ;
#103 = PRODUCT_DEFINITION_SHAPE ( 'NONE', 'NONE',  #161 ) ;
#104 = DIRECTION ( 'NONE',  ( 0.0000000000000000000, 1.000000000000000000, 0.0000000000000000000 ) ) ;
#105 = ORIENTED_EDGE ( 'NONE', *, *, #200, .F. ) ;
#106 = EDGE_CURVE ( 'NONE', #211, #211, #57, .T. ) ;
#107 = ORIENTED_EDGE ( 'NONE', *, *, #106, .F. ) ;
#108 = CIRCLE ( 'NONE', #183, 9.550000000000000700 ) ;
#109 = CARTESIAN_POINT ( 'NONE',  ( 29.71346540353370000, 3.038388356863342300, 14.85673270176685000 ) ) ;
#110 = CARTESIAN_POINT ( 'NONE',  ( 0.0000000000000000000, 3.038388356863342300, 14.85673270176685000 ) ) ;
#111 = AXIS2_PLACEMENT_3D ( 'NONE', #66, #49, #203 ) ;
#112 = EDGE_LOOP ( 'NONE', ( #85 ) ) ;
#113 = DIRECTION ( 'NONE',  ( -0.0000000000000000000, 1.000000000000000000, -0.0000000000000000000 ) ) ;
#114 = ORIENTED_EDGE ( 'NONE', *, *, #237, .T. ) ;
#115 =( LENGTH_UNIT ( ) NAMED_UNIT ( * ) SI_UNIT ( .MILLI., .METRE. ) );
#116 = DIRECTION ( 'NONE',  ( 0.0000000000000000000, 0.0000000000000000000, 1.000000000000000000 ) ) ;
#117 = CARTESIAN_POINT ( 'NONE',  ( 0.0000000000000000000, 4.460323098749619900, 0.0000000000000000000 ) ) ;
#118 = FILL_AREA_STYLE_COLOUR ( '', #74 ) ;
#119 = AXIS2_PLACEMENT_3D ( 'NONE', #208, #113, #246 ) ;
#120 = SURFACE_STYLE_FILL_AREA ( #179 ) ;
#121 = CIRCLE ( 'NONE', #202, 9.550000000000000700 ) ;
#122 =( NAMED_UNIT ( * ) SI_UNIT ( $, .STERADIAN. ) SOLID_ANGLE_UNIT ( ) );
#123 = DIRECTION ( 'NONE',  ( 0.0000000000000000000, 0.0000000000000000000, 1.000000000000000000 ) ) ;
#124 = PRESENTATION_STYLE_ASSIGNMENT (( #38 ) ) ;
#125 = ADVANCED_BREP_SHAPE_REPRESENTATION ( 'FULLVAC BT1KF161913', ( #209, #147 ), #222 ) ;
#126 = ORIENTED_EDGE ( 'NONE', *, *, #200, .T. ) ;
#127 = AXIS2_PLACEMENT_3D ( 'NONE', #67, #88, #140 ) ;
#128 = DIRECTION ( 'NONE',  ( 0.0000000000000000000, -0.0000000000000000000, 1.000000000000000000 ) ) ;
#129 = PLANE ( 'NONE',  #169 ) ;
#130 = DIRECTION ( 'NONE',  ( 0.0000000000000000000, 0.0000000000000000000, 1.000000000000000000 ) ) ;
#131 = EDGE_LOOP ( 'NONE', ( #65 ) ) ;
#132 =( NAMED_UNIT ( * ) PLANE_ANGLE_UNIT ( ) SI_UNIT ( $, .RADIAN. ) );
#133 = FILL_AREA_STYLE ('',( #214 ) ) ;
#134 = CARTESIAN_POINT ( 'NONE',  ( 0.0000000000000000000, 0.0000000000000000000, 8.599999999999999600 ) ) ;
#135 = DIRECTION ( 'NONE',  ( 0.0000000000000000000, 0.0000000000000000000, 1.000000000000000000 ) ) ;
#136 = ADVANCED_FACE ( 'NONE', ( #182, #219 ), #224, .T. ) ;
#137 = AXIS2_PLACEMENT_3D ( 'NONE', #252, #76, #116 ) ;
#138 = CIRCLE ( 'NONE', #191, 15.00000000000000000 ) ;
#139 = CYLINDRICAL_SURFACE ( 'NONE', #127, 7.849999999999999600 ) ;
#140 = DIRECTION ( 'NONE',  ( 0.0000000000000000000, 0.0000000000000000000, -1.000000000000000000 ) ) ;
#141 = EDGE_LOOP ( 'NONE', ( #256 ) ) ;
#142 = AXIS2_PLACEMENT_3D ( 'NONE', #145, #70, #93 ) ;
#143 = CARTESIAN_POINT ( 'NONE',  ( 0.0000000000000000000, 3.099299419165057600, 0.0000000000000000000 ) ) ;
#144 = ORIENTED_EDGE ( 'NONE', *, *, #173, .T. ) ;
#145 = CARTESIAN_POINT ( 'NONE',  ( 0.0000000000000000000, 3.099299419165057600, 0.0000000000000000000 ) ) ;
#146 = CARTESIAN_POINT ( 'NONE',  ( 0.0000000000000000000, 2.851678778707476000, 15.00000000000000200 ) ) ;
#147 = AXIS2_PLACEMENT_3D ( 'NONE', #228, #123, #220 ) ;
#148 = CARTESIAN_POINT ( 'NONE',  ( -29.71346540353370000, 3.038388356863342300, -14.85673270176685000 ) ) ;
#149 = EDGE_LOOP ( 'NONE', ( #232 ) ) ;
#150 =( NAMED_UNIT ( * ) SI_UNIT ( $, .STERADIAN. ) SOLID_ANGLE_UNIT ( ) );
#151 = ORIENTED_EDGE ( 'NONE', *, *, #237, .F. ) ;
#152 = PRODUCT ( 'FULLVAC BT1KF161913', 'FULLVAC BT1KF161913', '', ( #59 ) ) ;
#153 = CYLINDRICAL_SURFACE ( 'NONE', #164, 8.599999999999999600 ) ;
#154 = DIRECTION ( 'NONE',  ( 0.0000000000000000000, 1.000000000000000000, 0.0000000000000000000 ) ) ;
#155 = UNCERTAINTY_MEASURE_WITH_UNIT (LENGTH_MEASURE( 1.000000000000000100E-005 ), #177, 'distance_accuracy_value', 'NONE');
#156 = ADVANCED_FACE ( 'NONE', ( #84, #176 ), #129, .F. ) ;
#157 = APPLICATION_CONTEXT ( 'automotive_design' ) ;
#158 = SURFACE_SIDE_STYLE ('',( #120 ) ) ;
#159 = VERTEX_POINT ( 'NONE', #175 ) ;
#160 = FACE_OUTER_BOUND ( 'NONE', #90, .T. ) ;
#161 = PRODUCT_DEFINITION ( 'UNKNOWN', '', #196, #19 ) ;
#162 = EDGE_LOOP ( 'NONE', ( #27 ) ) ;
#163 = SURFACE_STYLE_FILL_AREA ( #133 ) ;
#164 = AXIS2_PLACEMENT_3D ( 'NONE', #227, #231, #135 ) ;
#165 = CARTESIAN_POINT ( 'NONE',  ( 29.71346540353370000, 3.038388356863342300, -14.85673270176685000 ) ) ;
#166 = DIRECTION ( 'NONE',  ( 0.0000000000000000000, -0.0000000000000000000, 1.000000000000000000 ) ) ;
#167 = DIRECTION ( 'NONE',  ( 0.0000000000000000000, 1.000000000000000000, 0.0000000000000000000 ) ) ;
#168 = DIRECTION ( 'NONE',  ( 0.0000000000000000000, 1.000000000000000000, 0.0000000000000000000 ) ) ;
#169 = AXIS2_PLACEMENT_3D ( 'NONE', #5, #247, #172 ) ;
#170 = FACE_OUTER_BOUND ( 'NONE', #94, .T. ) ;
#171 = CARTESIAN_POINT ( 'NONE',  ( 6.465133052823780100E-016, 0.0000000000000000000, 2.467162276944790000E-016 ) ) ;
#172 = DIRECTION ( 'NONE',  ( 0.0000000000000000000, -0.0000000000000000000, 1.000000000000000000 ) ) ;
#173 = EDGE_CURVE ( 'NONE', #159, #159, #108, .T. ) ;
#174 = CARTESIAN_POINT ( 'NONE',  ( 0.0000000000000000000, 12.69999999999999900, 0.0000000000000000000 ) ) ;
#175 = CARTESIAN_POINT ( 'NONE',  ( 0.0000000000000000000, 4.460323098749619900, 9.550000000000000700 ) ) ;
#176 = FACE_OUTER_BOUND ( 'NONE', #141, .T. ) ;
#177 =( LENGTH_UNIT ( ) NAMED_UNIT ( * ) SI_UNIT ( .MILLI., .METRE. ) );
#178 = EDGE_LOOP ( 'NONE', ( #51 ) ) ;
#179 = FILL_AREA_STYLE ('',( #118 ) ) ;
#180 = VERTEX_POINT ( 'NONE', #16 ) ;
#181 = FACE_OUTER_BOUND ( 'NONE', #45, .T. ) ;
#182 = FACE_BOUND ( 'NONE', #184, .T. ) ;
#183 = AXIS2_PLACEMENT_3D ( 'NONE', #117, #253, #80 ) ;
#184 = EDGE_LOOP ( 'NONE', ( #42 ) ) ;
#185 = EDGE_CURVE ( 'NONE', #201, #201, #6, .T. ) ;
#186 = CONICAL_SURFACE ( 'NONE', #142, 14.62940952255398100, 1.308996939000000000 ) ;
#187 = CARTESIAN_POINT ( 'NONE',  ( 0.0000000000000000000, 2.616336506010520100, -15.00000000000000200 ) ) ;
#188 = DIRECTION ( 'NONE',  ( -0.0000000000000000000, 1.000000000000000000, -0.0000000000000000000 ) ) ;
#189 = ORIENTED_EDGE ( 'NONE', *, *, #173, .F. ) ;
#190 = CIRCLE ( 'NONE', #69, 14.62940952255398100 ) ;
#191 = AXIS2_PLACEMENT_3D ( 'NONE', #100, #77, #212 ) ;
#192 = SURFACE_SIDE_STYLE ('',( #163 ) ) ;
#193 = APPLICATION_PROTOCOL_DEFINITION ( 'draft international standard', 'automotive_design', 1998, #257 ) ;
#194 = CYLINDRICAL_SURFACE ( 'NONE', #78, 9.550000000000000700 ) ;
#195 = FACE_OUTER_BOUND ( 'NONE', #112, .T. ) ;
#196 = PRODUCT_DEFINITION_FORMATION_WITH_SPECIFIED_SOURCE ( 'ANY', '', #152, .NOT_KNOWN. ) ;
#197 = PRESENTATION_LAYER_ASSIGNMENT (  '', '', ( #101 ) ) ;
#198 = ORIENTED_EDGE ( 'NONE', *, *, #106, .T. ) ;
#199 = CARTESIAN_POINT ( 'NONE',  ( 0.0000000000000000000, 0.0000000000000000000, 15.00000000000000000 ) ) ;
#200 = EDGE_CURVE ( 'NONE', #180, #180, #121, .T. ) ;
#201 = VERTEX_POINT ( 'NONE', #199 ) ;
#202 = AXIS2_PLACEMENT_3D ( 'NONE', #97, #154, #248 ) ;
#203 = DIRECTION ( 'NONE',  ( 0.0000000000000000000, 0.0000000000000000000, 1.000000000000000000 ) ) ;
#204 = CARTESIAN_POINT ( 'NONE',  ( 0.0000000000000000000, 3.038388356863342300, -14.85673270176685000 ) ) ;
#205 = AXIS2_PLACEMENT_3D ( 'NONE', #53, #168, #26 ) ;
#206 = CARTESIAN_POINT ( 'NONE',  ( 0.0000000000000000000, 2.616336506010520100, 15.00000000000000200 ) ) ;
#207 = CARTESIAN_POINT ( 'NONE',  ( -30.00000000000000000, 2.851678778707476000, 15.00000000000000000 ) ) ;
#208 = CARTESIAN_POINT ( 'NONE',  ( 0.0000000000000000000, 2.540000000000000500, 0.0000000000000000000 ) ) ;
#209 = MANIFOLD_SOLID_BREP ( '\X2\5BE69AD4\X0\1', #47 ) ;
#210 = CARTESIAN_POINT ( 'NONE',  ( 0.0000000000000000000, 3.099299419155043800, 14.62940952255130100 ) ) ;
#211 = VERTEX_POINT ( 'NONE', #102 ) ;
#212 = DIRECTION ( 'NONE',  ( 0.0000000000000000000, 0.0000000000000000000, 1.000000000000000000 ) ) ;
#213 = MECHANICAL_DESIGN_GEOMETRIC_PRESENTATION_REPRESENTATION (  '', ( #101 ), #4 ) ;
#214 = FILL_AREA_STYLE_COLOUR ( '', #56 ) ;
#215 = DIRECTION ( 'NONE',  ( 0.0000000000000000000, 0.0000000000000000000, 1.000000000000000000 ) ) ;
#216 = CARTESIAN_POINT ( 'NONE',  ( 0.0000000000000000000, 2.540000000000000000, 0.0000000000000000000 ) ) ;
#217 = APPLICATION_PROTOCOL_DEFINITION ( 'draft international standard', 'automotive_design', 1998, #157 ) ;
#218 = PRESENTATION_STYLE_ASSIGNMENT (( #83 ) ) ;
#219 = FACE_OUTER_BOUND ( 'NONE', #87, .T. ) ;
#220 = DIRECTION ( 'NONE',  ( 1.000000000000000000, 0.0000000000000000000, 0.0000000000000000000 ) ) ;
#221 = ADVANCED_FACE ( 'NONE', ( #24, #31 ), #153, .F. ) ;
#222 =( GEOMETRIC_REPRESENTATION_CONTEXT ( 3 ) GLOBAL_UNCERTAINTY_ASSIGNED_CONTEXT ( ( #23 ) ) GLOBAL_UNIT_ASSIGNED_CONTEXT ( ( #14, #40, #122 ) ) REPRESENTATION_CONTEXT ( 'NONE', 'WORKASPACE' ) );
#223 = CARTESIAN_POINT ( 'NONE',  ( 30.00000000000000000, 2.851678778707476000, 15.00000000000000000 ) ) ;
#224 = PLANE ( 'NONE',  #2 ) ;
#225 = AXIS2_PLACEMENT_3D ( 'NONE', #171, #245, #166 ) ;
#226 = CARTESIAN_POINT ( 'NONE',  ( -30.00000000000000000, 2.851678778707476000, -15.00000000000000000 ) ) ;
#227 = CARTESIAN_POINT ( 'NONE',  ( 0.0000000000000000000, 0.0000000000000000000, 0.0000000000000000000 ) ) ;
#228 = CARTESIAN_POINT ( 'NONE',  ( 0.0000000000000000000, 0.0000000000000000000, 0.0000000000000000000 ) ) ;
#229 = CIRCLE ( 'NONE', #36, 8.599999999999999600 ) ;
#230 = FACE_OUTER_BOUND ( 'NONE', #162, .T. ) ;
#231 = DIRECTION ( 'NONE',  ( 0.0000000000000000000, 1.000000000000000000, 0.0000000000000000000 ) ) ;
#232 = ORIENTED_EDGE ( 'NONE', *, *, #61, .F. ) ;
#233 =( NAMED_UNIT ( * ) PLANE_ANGLE_UNIT ( ) SI_UNIT ( $, .RADIAN. ) );
#234 = CARTESIAN_POINT ( 'NONE',  ( 0.0000000000000000000, 12.69999999999999900, -7.849999999999999600 ) ) ;
#235 = CARTESIAN_POINT ( 'NONE',  ( 0.0000000000000000000, 2.540000000000000000, 8.599999999999999600 ) ) ;
#236 = EDGE_LOOP ( 'NONE', ( #189 ) ) ;
#237 = EDGE_CURVE ( 'NONE', #79, #79, #138, .T. ) ;
#238 = FACE_OUTER_BOUND ( 'NONE', #37, .T. ) ;
#239 = UNCERTAINTY_MEASURE_WITH_UNIT (LENGTH_MEASURE( 1.000000000000000100E-005 ), #115, 'distance_accuracy_value', 'NONE');
#240 = EDGE_LOOP ( 'NONE', ( #198 ) ) ;
#241 = ORIENTED_EDGE ( 'NONE', *, *, #251, .F. ) ;
#242 = CARTESIAN_POINT ( 'NONE',  ( 0.0000000000000000000, 2.851678778707476000, 15.00000000000000200 ) ) ;
#243 = STYLED_ITEM ( 'NONE', ( #218 ), #125 ) ;
#244 = CARTESIAN_POINT ( 'NONE',  ( 29.99999999999999600, 2.616336506010520100, -14.99999999999999800 ) ) ;
#245 = DIRECTION ( 'NONE',  ( 0.0000000000000000000, 1.000000000000000000, 0.0000000000000000000 ) ) ;
#246 = DIRECTION ( 'NONE',  ( 0.0000000000000000000, 0.0000000000000000000, -1.000000000000000000 ) ) ;
#247 = DIRECTION ( 'NONE',  ( 0.0000000000000000000, 1.000000000000000000, 0.0000000000000000000 ) ) ;
#248 = DIRECTION ( 'NONE',  ( 0.0000000000000000000, 0.0000000000000000000, 1.000000000000000000 ) ) ;
#249 = ADVANCED_FACE ( 'NONE', ( #181, #160 ), #194, .T. ) ;
#250 = CARTESIAN_POINT ( 'NONE',  ( 0.0000000000000000000, 3.099299419165057600, 14.62940952255398100 ) ) ;
#251 = EDGE_CURVE ( 'NONE', #64, #64, #20, .T. ) ;
#252 = CARTESIAN_POINT ( 'NONE',  ( 0.0000000000000000000, 0.0000000000000000000, 0.0000000000000000000 ) ) ;
#253 = DIRECTION ( 'NONE',  ( 0.0000000000000000000, 1.000000000000000000, 0.0000000000000000000 ) ) ;
#254 =( NAMED_UNIT ( * ) SI_UNIT ( $, .STERADIAN. ) SOLID_ANGLE_UNIT ( ) );
#255 = EDGE_CURVE ( 'NONE', #21, #21, #229, .T. ) ;
#256 = ORIENTED_EDGE ( 'NONE', *, *, #255, .F. ) ;
#257 = APPLICATION_CONTEXT ( 'automotive_design' ) ;
#258 = VERTEX_POINT ( 'NONE', #134 ) ;
ENDSEC;
END-ISO-10303-21;
